  0
SECTION
  2
HEADER
  9
$ACADVER
  1
AC1009
  9
$DWGCODEPAGE
  3
ansi_1252
  9
$INSBASE
 10
0.0
 20
0.0
 30
0.0
  9
$EXTMIN
 10
-0.0000000000005889
 20
-3.507766990291254
 30
0.0
  9
$EXTMAX
 10
107.96458003644
 20
64.2631067961165
 30
0.0
  9
$LIMMIN
 10
0.0
 20
0.0
  9
$LIMMAX
 10
12.0
 20
9.0
  9
$ORTHOMODE
 70
     0
  9
$REGENMODE
 70
     1
  9
$FILLMODE
 70
     1
  9
$QTEXTMODE
 70
     0
  9
$MIRRTEXT
 70
     1
  9
$DRAGMODE
 70
     2
  9
$LTSCALE
 40
1.0
  9
$OSMODE
 70
    37
  9
$ATTMODE
 70
     1
  9
$TEXTSIZE
 40
0.2
  9
$TRACEWID
 40
0.05
  9
$TEXTSTYLE
  7
STANDARD
  9
$CLAYER
  8
0
  9
$CELTYPE
  6
BYLAYER
  9
$CECOLOR
 62
   256
  9
$DIMSCALE
 40
1.0
  9
$DIMASZ
 40
0.18
  9
$DIMEXO
 40
0.0625
  9
$DIMDLI
 40
0.38
  9
$DIMRND
 40
0.0
  9
$DIMDLE
 40
0.0
  9
$DIMEXE
 40
0.18
  9
$DIMTP
 40
0.0
  9
$DIMTM
 40
0.0
  9
$DIMTXT
 40
0.18
  9
$DIMCEN
 40
0.09
  9
$DIMTSZ
 40
0.0
  9
$DIMTOL
 70
     0
  9
$DIMLIM
 70
     0
  9
$DIMTIH
 70
     1
  9
$DIMTOH
 70
     1
  9
$DIMSE1
 70
     0
  9
$DIMSE2
 70
     0
  9
$DIMTAD
 70
     0
  9
$DIMZIN
 70
     0
  9
$DIMBLK
  1

  9
$DIMASO
 70
     1
  9
$DIMSHO
 70
     1
  9
$DIMPOST
  1

  9
$DIMAPOST
  1

  9
$DIMALT
 70
     0
  9
$DIMALTD
 70
     2
  9
$DIMALTF
 40
25.4
  9
$DIMLFAC
 40
1.0
  9
$DIMTOFL
 70
     0
  9
$DIMTVP
 40
0.0
  9
$DIMTIX
 70
     0
  9
$DIMSOXD
 70
     0
  9
$DIMSAH
 70
     0
  9
$DIMBLK1
  1

  9
$DIMBLK2
  1

  9
$DIMSTYLE
  2
STANDARD
  9
$DIMCLRD
 70
     0
  9
$DIMCLRE
 70
     0
  9
$DIMCLRT
 70
     0
  9
$DIMTFAC
 40
1.0
  9
$DIMGAP
 40
0.09
  9
$LUNITS
 70
     2
  9
$LUPREC
 70
     4
  9
$SKETCHINC
 40
0.1
  9
$FILLETRAD
 40
0.5
  9
$AUNITS
 70
     0
  9
$AUPREC
 70
     0
  9
$MENU
  1
.
  9
$ELEVATION
 40
0.0
  9
$PELEVATION
 40
0.0
  9
$THICKNESS
 40
0.0
  9
$LIMCHECK
 70
     0
  9
$CHAMFERA
 40
0.0
  9
$CHAMFERB
 40
0.0
  9
$SKPOLY
 70
     0
  9
$TDCREATE
 40
2454910.5
  9
$TDUPDATE
 40
2456763.059152801
  9
$TDINDWG
 40
0.0000000116
  9
$TDUSRTIMER
 40
0.0000000116
  9
$USRTIMER
 70
     1
  9
$ANGBASE
 50
0.0
  9
$ANGDIR
 70
     0
  9
$PDMODE
 70
     0
  9
$PDSIZE
 40
0.0
  9
$PLINEWID
 40
0.0
  9
$COORDS
 70
     1
  9
$SPLFRAME
 70
     0
  9
$SPLINETYPE
 70
     6
  9
$SPLINESEGS
 70
     8
  9
$ATTDIA
 70
     0
  9
$ATTREQ
 70
     1
  9
$HANDLING
 70
     1
  9
$HANDSEED
  5
F0
  9
$SURFTAB1
 70
     6
  9
$SURFTAB2
 70
     6
  9
$SURFTYPE
 70
     6
  9
$SURFU
 70
     6
  9
$SURFV
 70
     6
  9
$UCSNAME
  2

  9
$UCSORG
 10
0.0
 20
0.0
 30
0.0
  9
$UCSXDIR
 10
1.0
 20
0.0
 30
0.0
  9
$UCSYDIR
 10
0.0
 20
1.0
 30
0.0
  9
$PUCSNAME
  2

  9
$PUCSORG
 10
0.0
 20
0.0
 30
0.0
  9
$PUCSXDIR
 10
1.0
 20
0.0
 30
0.0
  9
$PUCSYDIR
 10
0.0
 20
1.0
 30
0.0
  9
$USERI1
 70
     0
  9
$USERI2
 70
     0
  9
$USERI3
 70
     0
  9
$USERI4
 70
     0
  9
$USERI5
 70
     0
  9
$USERR1
 40
0.0
  9
$USERR2
 40
0.0
  9
$USERR3
 40
0.0
  9
$USERR4
 40
0.0
  9
$USERR5
 40
0.0
  9
$WORLDVIEW
 70
     1
  9
$SHADEDGE
 70
     3
  9
$SHADEDIF
 70
    70
  9
$TILEMODE
 70
     1
  9
$MAXACTVP
 70
    64
  9
$PLIMCHECK
 70
     0
  9
$PEXTMIN
 10
1.000000000000000E+20
 20
1.000000000000000E+20
 30
1.000000000000000E+20
  9
$PEXTMAX
 10
-1.000000000000000E+20
 20
-1.000000000000000E+20
 30
-1.000000000000000E+20
  9
$PLIMMIN
 10
0.0
 20
0.0
  9
$PLIMMAX
 10
12.0
 20
9.0
  9
$UNITMODE
 70
     0
  9
$VISRETAIN
 70
     1
  9
$PLINEGEN
 70
     0
  9
$PSLTSCALE
 70
     1
  0
ENDSEC
  0
SECTION
  2
TABLES
  0
TABLE
  2
VPORT
 70
     1
  0
VPORT
  2
*ACTIVE
 70
     0
 10
0.0
 20
0.0
 11
1.0
 21
1.0
 12
10.42990654205607
 22
4.5
 13
0.0
 23
0.0
 14
0.5
 24
0.5
 15
0.5
 25
0.5
 16
0.0
 26
0.0
 36
1.0
 17
0.0
 27
0.0
 37
0.0
 40
9.0
 41
1.972972972850329
 42
50.0
 43
0.0
 44
0.0
 50
0.0
 51
0.0
 71
     0
 72
   100
 73
     1
 74
     3
 75
     0
 76
     0
 77
     0
 78
     0
  0
ENDTAB
  0
TABLE
  2
LTYPE
 70
     2
  0
LTYPE
  2
CONTINUOUS
 70
     0
  3
Solid line
 72
    65
 73
     0
 40
0.0
  0
LTYPE
  2
CONTINUOUS2
 70
     0
  3
Solid Line
 72
    65
 73
     0
 40
0.0
  0
ENDTAB
  0
TABLE
  2
LAYER
 70
     2
  0
LAYER
  2
0
 70
     0
 62
     7
  6
CONTINUOUS
  0
LAYER
  2
SECTIONCUTEDGES
 70
     0
 62
    18
  6
CONTINUOUS
  0
ENDTAB
  0
TABLE
  2
STYLE
 70
     1
  0
STYLE
  2
STANDARD
 70
     0
 40
0.0
 41
1.0
 50
0.0
 71
     0
 42
0.2
  3
txt
  4

  0
ENDTAB
  0
TABLE
  2
VIEW
 70
     0
  0
ENDTAB
  0
TABLE
  2
UCS
 70
     0
  0
ENDTAB
  0
TABLE
  2
APPID
 70
     1
  0
APPID
  2
ACAD
 70
     0
  0
ENDTAB
  0
TABLE
  2
DIMSTYLE
 70
     1
  0
DIMSTYLE
  2
STANDARD
 70
     0
  3

  4

  5

  6

  7

 40
1.0
 41
0.18
 42
0.0625
 43
0.38
 44
0.18
 45
0.0
 46
0.0
 47
0.0
 48
0.0
140
0.18
141
0.09
142
0.0
143
25.4
144
1.0
145
0.0
146
1.0
147
0.09
 71
     0
 72
     0
 73
     1
 74
     1
 75
     0
 76
     0
 77
     0
 78
     0
170
     0
171
     2
172
     0
173
     0
174
     0
175
     0
176
     0
177
     0
178
     0
  0
ENDTAB
  0
ENDSEC
  0
SECTION
  2
BLOCKS
  0
BLOCK
  8
0
  2
$MODEL_SPACE
 70
     0
 10
0.0
 20
0.0
 30
0.0
  3
$MODEL_SPACE
  1

  0
ENDBLK
  5
21
  8
0
  0
BLOCK
 67
     1
  8
0
  2
$PAPER_SPACE
 70
     0
 10
0.0
 20
0.0
 30
0.0
  3
$PAPER_SPACE
  1

  0
ENDBLK
  5
1D
 67
     1
  8
0
  0
ENDSEC
  0
SECTION
  2
ENTITIES
  0
POLYLINE
  5
6B
  8
0
 66
     1
 10
0.0
 20
0.0
 30
0.0
 70
     1
  0
VERTEX
  5
7F
  8
0
 10
13.4955725045545
 20
64.26310679611649
 30
0.0
  0
VERTEX
  5
80
  8
0
 10
13.49557250455445
 20
-3.507766990291175
 30
0.0
  0
VERTEX
  5
81
  8
0
 10
6.497868242933328
 20
-3.507766990291175
 30
0.0
  0
VERTEX
  5
82
  8
0
 10
6.49786824293337
 20
64.2631067961165
 30
0.0
  0
SEQEND
  5
E4
  8
0
  0
POLYLINE
  5
6C
  8
0
 66
     1
 10
0.0
 20
0.0
 30
0.0
 70
     1
  0
VERTEX
  5
83
  8
0
 10
46.48474973791132
 20
64.26310679611649
 30
0.0
  0
VERTEX
  5
84
  8
0
 10
46.48474973791129
 20
-3.507766990291205
 30
0.0
  0
VERTEX
  5
85
  8
0
 10
39.48704547629013
 20
-3.507766990291205
 30
0.0
  0
VERTEX
  5
86
  8
0
 10
39.48704547629017
 20
64.26310679611649
 30
0.0
  0
SEQEND
  5
E5
  8
0
  0
POLYLINE
  5
6D
  8
0
 66
     1
 10
0.0
 20
0.0
 30
0.0
 70
     1
  0
VERTEX
  5
87
  8
0
 10
57.48114214903026
 20
64.26310679611647
 30
0.0
  0
VERTEX
  5
88
  8
0
 10
57.48114214903023
 20
-3.507766990291215
 30
0.0
  0
VERTEX
  5
89
  8
0
 10
50.48343788740908
 20
-3.507766990291205
 30
0.0
  0
VERTEX
  5
8A
  8
0
 10
50.48343788740912
 20
64.26310679611647
 30
0.0
  0
SEQEND
  5
E6
  8
0
  0
POLYLINE
  5
6E
  8
0
 66
     1
 10
0.0
 20
0.0
 30
0.0
 70
     1
  0
VERTEX
  5
8B
  8
0
 10
68.47753456014922
 20
64.26310679611647
 30
0.0
  0
VERTEX
  5
8C
  8
0
 10
68.47753456014917
 20
-3.507766990291215
 30
0.0
  0
VERTEX
  5
8D
  8
0
 10
61.47983029852803
 20
-3.507766990291215
 30
0.0
  0
VERTEX
  5
8E
  8
0
 10
61.47983029852806
 20
64.26310679611647
 30
0.0
  0
SEQEND
  5
E7
  8
0
  0
POLYLINE
  5
6F
  8
0
 66
     1
 10
0.0
 20
0.0
 30
0.0
 70
     1
  0
VERTEX
  5
8F
  8
0
 10
90.4703193823871
 20
64.26310679611645
 30
0.0
  0
VERTEX
  5
90
  8
0
 10
90.47031938238707
 20
-3.507766990291244
 30
0.0
  0
VERTEX
  5
91
  8
0
 10
83.47261512076592
 20
-3.507766990291244
 30
0.0
  0
VERTEX
  5
92
  8
0
 10
83.47261512076598
 20
64.26310679611646
 30
0.0
  0
SEQEND
  5
E8
  8
0
  0
POLYLINE
  5
70
  8
0
 66
     1
 10
0.0
 20
0.0
 30
0.0
 70
     1
  0
VERTEX
  5
93
  8
0
 10
101.4667117935061
 20
64.26310679611643
 30
0.0
  0
VERTEX
  5
94
  8
0
 10
101.466711793506
 20
-3.507766990291254
 30
0.0
  0
VERTEX
  5
95
  8
0
 10
94.46900753188487
 20
-3.507766990291254
 30
0.0
  0
VERTEX
  5
96
  8
0
 10
94.46900753188488
 20
64.26310679611645
 30
0.0
  0
SEQEND
  5
E9
  8
0
  0
POLYLINE
  5
71
  8
0
 66
     1
 10
0.0
 20
0.0
 30
0.0
 70
     1
  0
VERTEX
  5
97
  8
0
 10
24.49196491567345
 20
64.26310679611649
 30
0.0
  0
VERTEX
  5
98
  8
0
 10
24.4919649156734
 20
-3.507766990291195
 30
0.0
  0
VERTEX
  5
99
  8
0
 10
17.49426065405226
 20
-3.507766990291175
 30
0.0
  0
VERTEX
  5
9A
  8
0
 10
17.4942606540523
 20
64.26310679611649
 30
0.0
  0
SEQEND
  5
EA
  8
0
  0
POLYLINE
  5
72
  8
0
 66
     1
 10
0.0
 20
0.0
 30
0.0
 70
     1
  0
VERTEX
  5
9B
  8
0
 10
103.4396510313261
 20
17.04368932038835
 30
0.0
  0
VERTEX
  5
9C
  8
0
 10
103.4396510313261
 20
43.46699029126205
 30
0.0
  0
VERTEX
  5
9D
  8
0
 10
4.572086534993014
 20
43.46699029126215
 30
0.0
  0
VERTEX
  5
9E
  8
0
 10
4.572086534993002
 20
17.04368932038845
 30
0.0
  0
SEQEND
  5
EB
  8
0
  0
POLYLINE
  5
74
  8
SECTIONCUTEDGES
 66
     1
 10
0.0
 20
0.0
 30
0.0
 70
     1
  0
VERTEX
  5
9F
  8
SECTIONCUTEDGES
 10
27.99081704648398
 20
0.0087388435864072
 30
0.0
  0
VERTEX
  5
A0
  8
SECTIONCUTEDGES
 10
-0.0000000000005889
 20
-0.0000000000008379
 30
0.0
  0
VERTEX
  5
A1
  8
SECTIONCUTEDGES
 10
-0.0000000000005478
 20
60.97999427984058
 30
0.0
  0
VERTEX
  5
A2
  8
SECTIONCUTEDGES
 10
27.99081704648402
 20
60.97999427984056
 30
0.0
  0
VERTEX
  5
A3
  8
SECTIONCUTEDGES
 10
28.12706904110585
 20
59.94505763132478
 30
0.0
  0
VERTEX
  5
A4
  8
SECTIONCUTEDGES
 10
28.52653967670494
 20
58.98065020509167
 30
0.0
  0
VERTEX
  5
A5
  8
SECTIONCUTEDGES
 10
29.16200568962164
 20
58.1524947734804
 30
0.0
  0
VERTEX
  5
A6
  8
SECTIONCUTEDGES
 10
29.99016112123292
 20
57.51702876056368
 30
0.0
  0
VERTEX
  5
A7
  8
SECTIONCUTEDGES
 10
30.95456854746604
 20
57.1175581249646
 30
0.0
  0
VERTEX
  5
A8
  8
SECTIONCUTEDGES
 10
31.98950519598182
 20
56.98130613034277
 30
0.0
  0
VERTEX
  5
A9
  8
SECTIONCUTEDGES
 10
33.02444184449761
 20
57.1175581249646
 30
0.0
  0
VERTEX
  5
AA
  8
SECTIONCUTEDGES
 10
33.98884927073071
 20
57.51702876056368
 30
0.0
  0
VERTEX
  5
AB
  8
SECTIONCUTEDGES
 10
34.81700470234199
 20
58.15249477348038
 30
0.0
  0
VERTEX
  5
AC
  8
SECTIONCUTEDGES
 10
35.4524707152587
 20
58.98065020509166
 30
0.0
  0
VERTEX
  5
AD
  8
SECTIONCUTEDGES
 10
35.85194135085778
 20
59.94505763132477
 30
0.0
  0
VERTEX
  5
AE
  8
SECTIONCUTEDGES
 10
35.98819334547961
 20
60.97999427984056
 30
0.0
  0
VERTEX
  5
AF
  8
SECTIONCUTEDGES
 10
68.97737057883644
 20
60.97999427984055
 30
0.0
  0
VERTEX
  5
B0
  8
SECTIONCUTEDGES
 10
69.11362257345829
 20
59.94505763132475
 30
0.0
  0
VERTEX
  5
B1
  8
SECTIONCUTEDGES
 10
69.51309320905737
 20
58.98065020509164
 30
0.0
  0
VERTEX
  5
B2
  8
SECTIONCUTEDGES
 10
70.14855922197407
 20
58.15249477348036
 30
0.0
  0
VERTEX
  5
B3
  8
SECTIONCUTEDGES
 10
70.97671465358536
 20
57.51702876056365
 30
0.0
  0
VERTEX
  5
B4
  8
SECTIONCUTEDGES
 10
71.94112207981846
 20
57.11755812496457
 30
0.0
  0
VERTEX
  5
B5
  8
SECTIONCUTEDGES
 10
72.97605872833425
 20
56.98130613034274
 30
0.0
  0
VERTEX
  5
B6
  8
SECTIONCUTEDGES
 10
74.01099537685005
 20
57.11755812496457
 30
0.0
  0
VERTEX
  5
B7
  8
SECTIONCUTEDGES
 10
74.97540280308316
 20
57.51702876056365
 30
0.0
  0
VERTEX
  5
B8
  8
SECTIONCUTEDGES
 10
75.80355823469442
 20
58.15249477348036
 30
0.0
  0
VERTEX
  5
B9
  8
SECTIONCUTEDGES
 10
76.43902424761114
 20
58.98065020509164
 30
0.0
  0
VERTEX
  5
BA
  8
SECTIONCUTEDGES
 10
76.83849488321022
 20
59.94505763132474
 30
0.0
  0
VERTEX
  5
BB
  8
SECTIONCUTEDGES
 10
76.97474687783205
 20
60.97999427984053
 30
0.0
  0
VERTEX
  5
BC
  8
SECTIONCUTEDGES
 10
107.96458003644
 20
60.97999427984051
 30
0.0
  0
VERTEX
  5
BD
  8
SECTIONCUTEDGES
 10
107.96458003644
 20
-0.0000000000009095
 30
0.0
  0
VERTEX
  5
BE
  8
SECTIONCUTEDGES
 10
76.94850555091672
 20
0.0037657436836728
 30
0.0
  0
VERTEX
  5
BF
  8
SECTIONCUTEDGES
 10
76.96565966750718
 20
0.2736757073158957
 30
0.0
  0
VERTEX
  5
C0
  8
SECTIONCUTEDGES
 10
76.75998430280994
 20
1.297079887899592
 30
0.0
  0
VERTEX
  5
C1
  8
SECTIONCUTEDGES
 10
76.29644066344487
 20
2.23237971516554
 30
0.0
  0
VERTEX
  5
C2
  8
SECTIONCUTEDGES
 10
75.60661848239259
 20
3.015836051541597
 30
0.0
  0
VERTEX
  5
C3
  8
SECTIONCUTEDGES
 10
74.73752800130679
 20
3.594057642426561
 30
0.0
  0
VERTEX
  5
C4
  8
SECTIONCUTEDGES
 10
73.7483963002335
 20
3.927639641957972
 30
0.0
  0
VERTEX
  5
C5
  8
SECTIONCUTEDGES
 10
72.70663106998344
 20
3.993848988138119
 30
0.0
  0
VERTEX
  5
C6
  8
SECTIONCUTEDGES
 10
71.68322688939976
 20
3.788173623440887
 30
0.0
  0
VERTEX
  5
C7
  8
SECTIONCUTEDGES
 10
70.74792706213384
 20
3.324629984075816
 30
0.0
  0
VERTEX
  5
C8
  8
SECTIONCUTEDGES
 10
69.96447072575775
 20
2.634807803023538
 30
0.0
  0
VERTEX
  5
C9
  8
SECTIONCUTEDGES
 10
69.38624913487278
 20
1.76571732193773
 30
0.0
  0
VERTEX
  5
CA
  8
SECTIONCUTEDGES
 10
69.05266713534138
 20
0.7765856208644396
 30
0.0
  0
VERTEX
  5
CB
  8
SECTIONCUTEDGES
 10
69.0036119057517
 20
0.0047303542466177
 30
0.0
  0
VERTEX
  5
CC
  8
SECTIONCUTEDGES
 10
35.98819334547957
 20
0.0087388435864072
 30
0.0
  0
VERTEX
  5
CD
  8
SECTIONCUTEDGES
 10
35.85194135085775
 20
1.043675492102178
 30
0.0
  0
VERTEX
  5
CE
  8
SECTIONCUTEDGES
 10
35.45247071525866
 20
2.008082918335296
 30
0.0
  0
VERTEX
  5
CF
  8
SECTIONCUTEDGES
 10
34.81700470234195
 20
2.836238349946585
 30
0.0
  0
VERTEX
  5
D0
  8
SECTIONCUTEDGES
 10
33.98884927073067
 20
3.471704362863289
 30
0.0
  0
VERTEX
  5
D1
  8
SECTIONCUTEDGES
 10
33.02444184449757
 20
3.871174998462374
 30
0.0
  0
VERTEX
  5
D2
  8
SECTIONCUTEDGES
 10
31.98950519598178
 20
4.007426993084219
 30
0.0
  0
VERTEX
  5
D3
  8
SECTIONCUTEDGES
 10
30.954568547466
 20
3.871174998462374
 30
0.0
  0
VERTEX
  5
D4
  8
SECTIONCUTEDGES
 10
29.99016112123288
 20
3.471704362863289
 30
0.0
  0
VERTEX
  5
D5
  8
SECTIONCUTEDGES
 10
29.1620056896216
 20
2.836238349946585
 30
0.0
  0
VERTEX
  5
D6
  8
SECTIONCUTEDGES
 10
28.5265396767049
 20
2.008082918335313
 30
0.0
  0
VERTEX
  5
D7
  8
SECTIONCUTEDGES
 10
28.12706904110581
 20
1.043675492102196
 30
0.0
  0
SEQEND
  5
EC
  8
SECTIONCUTEDGES
  0
POLYLINE
  5
75
  8
SECTIONCUTEDGES
 66
     1
 10
0.0
 20
0.0
 30
0.0
 70
     1
  0
VERTEX
  5
D8
  8
SECTIONCUTEDGES
 10
79.47392697126814
 20
-3.503922648121145
 30
0.0
  0
VERTEX
  5
D9
  8
SECTIONCUTEDGES
 10
72.47622270964699
 20
-3.507766990291215
 30
0.0
  0
VERTEX
  5
DA
  8
SECTIONCUTEDGES
 10
72.47622270964703
 20
64.26310679611647
 30
0.0
  0
VERTEX
  5
DB
  8
SECTIONCUTEDGES
 10
79.47392697126817
 20
64.26310679611646
 30
0.0
  0
SEQEND
  5
ED
  8
SECTIONCUTEDGES
  0
POLYLINE
  5
76
  8
SECTIONCUTEDGES
 66
     1
 10
0.0
 20
0.0
 30
0.0
  0
VERTEX
  5
DC
  8
SECTIONCUTEDGES
 10
27.99081704648398
 20
0.0087388435864072
 30
0.0
  0
VERTEX
  5
DD
  8
SECTIONCUTEDGES
 10
35.98819334547957
 20
0.0087388435864072
 30
0.0
  0
SEQEND
  5
EE
  8
SECTIONCUTEDGES
  0
POLYLINE
  5
77
  8
SECTIONCUTEDGES
 66
     1
 10
0.0
 20
0.0
 30
0.0
 70
     1
  0
VERTEX
  5
DE
  8
SECTIONCUTEDGES
 10
28.49065306517125
 20
64.26310679611649
 30
0.0
  0
VERTEX
  5
DF
  8
SECTIONCUTEDGES
 10
35.48835732679239
 20
64.26310679611649
 30
0.0
  0
VERTEX
  5
E0
  8
SECTIONCUTEDGES
 10
35.48835732679234
 20
-3.507766990291195
 30
0.0
  0
VERTEX
  5
E1
  8
SECTIONCUTEDGES
 10
28.4906530651712
 20
-3.507766990291195
 30
0.0
  0
SEQEND
  5
EF
  8
SECTIONCUTEDGES
  0
ENDSEC
  0
EOF
